  0
SECTION
  2
HEADER
  9
$ACADVER
  1
AC1015
  9
$ACADMAINTVER
 70
     6
  9
$DWGCODEPAGE
  3
ANSI_1254
  9
$INSBASE
 10
0.0
 20
0.0
 30
0.0
  9
$EXTMIN
 10
0.0
 20
0.0
 30
0.0
  9
$EXTMAX
 10
279.4
 20
215.9
 30
0.0
  9
$LIMMIN
 10
0.0
 20
0.0
  9
$LIMMAX
 10
279.4
 20
215.9
  9
$ORTHOMODE
 70
     0
  9
$REGENMODE
 70
     1
  9
$FILLMODE
 70
     1
  9
$QTEXTMODE
 70
     0
  9
$MIRRTEXT
 70
     1
  9
$LTSCALE
 40
1.0
  9
$ATTMODE
 70
     1
  9
$TEXTSIZE
 40
3.5
  9
$TRACEWID
 40
1.0
  9
$TEXTSTYLE
  7
Standard
  9
$CLAYER
  8
0
  9
$CELTYPE
  6
ByLayer
  9
$CECOLOR
 62
   256
  9
$CELTSCALE
 40
1.0
  9
$DISPSILH
 70
     0
  9
$DIMSCALE
 40
1.0
  9
$DIMASZ
 40
3.5
  9
$DIMEXO
 40
1.0
  9
$DIMDLI
 40
3.75
  9
$DIMRND
 40
0.0
  9
$DIMDLE
 40
0.0
  9
$DIMEXE
 40
1.0
  9
$DIMTP
 40
0.0
  9
$DIMTM
 40
0.0
  9
$DIMTXT
 40
3.5
  9
$DIMCEN
 40
2.5
  9
$DIMTSZ
 40
0.0
  9
$DIMTOL
 70
     0
  9
$DIMLIM
 70
     0
  9
$DIMTIH
 70
     1
  9
$DIMTOH
 70
     1
  9
$DIMSE1
 70
     0
  9
$DIMSE2
 70
     0
  9
$DIMTAD
 70
     1
  9
$DIMZIN
 70
     0
  9
$DIMBLK
  1

  9
$DIMASO
 70
     1
  9
$DIMSHO
 70
     1
  9
$DIMPOST
  1

  9
$DIMAPOST
  1

  9
$DIMALT
 70
     0
  9
$DIMALTD
 70
     3
  9
$DIMALTF
 40
0.0393700787
  9
$DIMLFAC
 40
1.0
  9
$DIMTOFL
 70
     1
  9
$DIMTVP
 40
0.0
  9
$DIMTIX
 70
     0
  9
$DIMSOXD
 70
     0
  9
$DIMSAH
 70
     0
  9
$DIMBLK1
  1

  9
$DIMBLK2
  1

  9
$DIMSTYLE
  2
ISO-25
  9
$DIMCLRD
 70
     0
  9
$DIMCLRE
 70
     0
  9
$DIMCLRT
 70
     0
  9
$DIMTFAC
 40
1.0
  9
$DIMGAP
 40
1.524
  9
$DIMJUST
 70
     0
  9
$DIMSD1
 70
     0
  9
$DIMSD2
 70
     0
  9
$DIMTOLJ
 70
     0
  9
$DIMTZIN
 70
     0
  9
$DIMALTZ
 70
     0
  9
$DIMALTTZ
 70
     0
  9
$DIMUPT
 70
     0
  9
$DIMDEC
 70
     2
  9
$DIMTDEC
 70
     2
  9
$DIMALTU
 70
     2
  9
$DIMALTTD
 70
     3
  9
$DIMTXSTY
  7
Standard
  9
$DIMAUNIT
 70
     0
  9
$DIMADEC
 70
     2
  9
$DIMALTRND
 40
0.0
  9
$DIMAZIN
 70
     0
  9
$DIMDSEP
 70
    44
  9
$DIMATFIT
 70
     3
  9
$DIMFRAC
 70
     0
  9
$DIMLDRBLK
  1

  9
$DIMLUNIT
 70
     2
  9
$DIMLWD
 70
    -2
  9
$DIMLWE
 70
    -2
  9
$DIMTMOVE
 70
     0
  9
$LUNITS
 70
     2
  9
$LUPREC
 70
     2
  9
$SKETCHINC
 40
1.0
  9
$FILLETRAD
 40
10.0
  9
$AUNITS
 70
     0
  9
$AUPREC
 70
     2
  9
$MENU
  1
.
  9
$ELEVATION
 40
0.0
  9
$PELEVATION
 40
0.0
  9
$THICKNESS
 40
0.0
  9
$LIMCHECK
 70
     0
  9
$CHAMFERA
 40
0.0
  9
$CHAMFERB
 40
0.0
  9
$CHAMFERC
 40
0.0
  9
$CHAMFERD
 40
0.0
  9
$SKPOLY
 70
     0
  9
$TDCREATE
 40
2460697.540951887
  9
$TDUCREATE
 40
2460697.415951887
  9
$TDUPDATE
 40
2460697.540951887
  9
$TDUUPDATE
 40
2460697.415951887
  9
$TDINDWG
 40
0.0000000116
  9
$TDUSRTIMER
 40
0.0000000116
  9
$USRTIMER
 70
     1
  9
$ANGBASE
 50
0.0
  9
$ANGDIR
 70
     0
  9
$PDMODE
 70
     0
  9
$PDSIZE
 40
-1.0
  9
$PLINEWID
 40
0.0
  9
$SPLFRAME
 70
     0
  9
$SPLINETYPE
 70
     6
  9
$SPLINESEGS
 70
     8
  9
$HANDSEED
  5
B2
  9
$SURFTAB1
 70
     6
  9
$SURFTAB2
 70
     6
  9
$SURFTYPE
 70
     6
  9
$SURFU
 70
     6
  9
$SURFV
 70
     6
  9
$UCSBASE
  2

  9
$UCSNAME
  2

  9
$UCSORG
 10
0.0
 20
0.0
 30
0.0
  9
$UCSXDIR
 10
1.0
 20
0.0
 30
0.0
  9
$UCSYDIR
 10
0.0
 20
1.0
 30
0.0
  9
$UCSORTHOREF
  2

  9
$UCSORTHOVIEW
 70
     0
  9
$UCSORGTOP
 10
0.0
 20
0.0
 30
0.0
  9
$UCSORGBOTTOM
 10
0.0
 20
0.0
 30
0.0
  9
$UCSORGLEFT
 10
0.0
 20
0.0
 30
0.0
  9
$UCSORGRIGHT
 10
0.0
 20
0.0
 30
0.0
  9
$UCSORGFRONT
 10
0.0
 20
0.0
 30
0.0
  9
$UCSORGBACK
 10
0.0
 20
0.0
 30
0.0
  9
$PUCSBASE
  2

  9
$PUCSNAME
  2

  9
$PUCSORG
 10
0.0
 20
0.0
 30
0.0
  9
$PUCSXDIR
 10
1.0
 20
0.0
 30
0.0
  9
$PUCSYDIR
 10
0.0
 20
1.0
 30
0.0
  9
$PUCSORTHOREF
  2

  9
$PUCSORTHOVIEW
 70
     0
  9
$PUCSORGTOP
 10
0.0
 20
0.0
 30
0.0
  9
$PUCSORGBOTTOM
 10
0.0
 20
0.0
 30
0.0
  9
$PUCSORGLEFT
 10
0.0
 20
0.0
 30
0.0
  9
$PUCSORGRIGHT
 10
0.0
 20
0.0
 30
0.0
  9
$PUCSORGFRONT
 10
0.0
 20
0.0
 30
0.0
  9
$PUCSORGBACK
 10
0.0
 20
0.0
 30
0.0
  9
$USERI1
 70
     0
  9
$USERI2
 70
     0
  9
$USERI3
 70
     0
  9
$USERI4
 70
     0
  9
$USERI5
 70
     0
  9
$USERR1
 40
0.0
  9
$USERR2
 40
0.0
  9
$USERR3
 40
0.0
  9
$USERR4
 40
0.0
  9
$USERR5
 40
0.0
  9
$WORLDVIEW
 70
     1
  9
$SHADEDGE
 70
     3
  9
$SHADEDIF
 70
    70
  9
$TILEMODE
 70
     1
  9
$MAXACTVP
 70
    64
  9
$PINSBASE
 10
0.0
 20
0.0
 30
0.0
  9
$PLIMCHECK
 70
     0
  9
$PEXTMIN
 10
1.0000000000E+20
 20
1.0000000000E+20
 30
1.0000000000E+20
  9
$PEXTMAX
 10
-1.0000000000E+20
 20
-1.0000000000E+20
 30
-1.0000000000E+20
  9
$PLIMMIN
 10
0.0
 20
0.0
  9
$PLIMMAX
 10
420.0
 20
297.0
  9
$UNITMODE
 70
     0
  9
$VISRETAIN
 70
     1
  9
$PLINEGEN
 70
     0
  9
$PSLTSCALE
 70
     1
  9
$TREEDEPTH
 70
  3020
  9
$CMLSTYLE
  2
Standard
  9
$CMLJUST
 70
     0
  9
$CMLSCALE
 40
20.0
  9
$PROXYGRAPHICS
 70
     1
  9
$MEASUREMENT
 70
     1
  9
$CELWEIGHT
370
    -1
  9
$ENDCAPS
280
     0
  9
$JOINSTYLE
280
     0
  9
$LWDISPLAY
290
     1
  9
$INSUNITS
 70
     4
  9
$HYPERLINKBASE
  1

  9
$STYLESHEET
  1

  9
$XEDIT
290
     1
  9
$CEPSNTYPE
380
     0
  9
$PSTYLEMODE
290
     1
  9
$FINGERPRINTGUID
  2
{1ca557dc-8ad1-4dc1-8186-eb1eed804cbf}
  9
$VERSIONGUID
  2
{FAEB1C32-E019-11D5-929B-00C0DF256EC4}
  9
$EXTNAMES
290
     1
  9
$PSVPSCALE
 40
0.0
  9
$OLESTARTUP
290
     0
  0
ENDSEC
  0
SECTION
  2
CLASSES
  0
CLASS
  1
ACDBDICTIONARYWDFLT
  2
AcDbDictionaryWithDefault
  3
ObjectDBX Classes
 90
        0
280
     0
281
     0
  0
CLASS
  1
VISUALSTYLE
  2
AcDbVisualStyle
  3
ObjectDBX Classes
 90
     4095
280
     0
281
     0
  0
CLASS
  1
MATERIAL
  2
AcDbMaterial
  3
ObjectDBX Classes
 90
     1153
280
     0
281
     0
  0
CLASS
  1
SCALE
  2
AcDbScale
  3
ObjectDBX Classes
 90
     1153
280
     0
281
     0
  0
CLASS
  1
TABLESTYLE
  2
AcDbTableStyle
  3
ObjectDBX Classes
 90
     4095
280
     0
281
     0
  0
CLASS
  1
MLEADERSTYLE
  2
AcDbMLeaderStyle
  3
ACDB_MLEADERSTYLE_CLASS
 90
     4095
280
     0
281
     0
  0
CLASS
  1
SUN
  2
AcDbSun
  3
SCENEOE
 90
     1153
280
     0
281
     0
  0
CLASS
  1
ACDBPLACEHOLDER
  2
AcDbPlaceHolder
  3
ObjectDBX Classes
 90
        0
280
     0
281
     0
  0
CLASS
  1
LAYOUT
  2
AcDbLayout
  3
ObjectDBX Classes
 90
        0
280
     0
281
     0
  0
ENDSEC
  0
SECTION
  2
TABLES
  0
TABLE
  2
VPORT
  5
8
330
0
100
AcDbSymbolTable
 70
     1
  0
VPORT
  5
29
330
8
100
AcDbSymbolTableRecord
100
AcDbViewportTableRecord
  2
*Active
 70
     0
 10
0.0
 20
0.0
 11
1.0
 21
1.0
 12
139.7
 22
107.95
 13
0.0
 23
0.0
 14
10.0
 24
10.0
 15
10.0
 25
10.0
 16
0.0
 26
0.0
 36
1.0
 17
0.0
 27
0.0
 37
0.0
 40
215.9
 41
1.2941176471
 42
50.0
 43
0.0
 44
0.0
 50
0.0
 51
0.0
 71
     0
 72
  2000
 73
     1
 74
     3
 75
     0
 76
     0
 77
     0
 78
     0
281
     0
 65
     1
110
0.0
120
0.0
130
0.0
111
1.0
121
0.0
131
0.0
112
0.0
122
1.0
132
0.0
 79
     0
146
0.0
  0
ENDTAB
  0
TABLE
  2
LTYPE
  5
5
330
0
100
AcDbSymbolTable
 70
     6
  0
LTYPE
  5
14
330
5
100
AcDbSymbolTableRecord
100
AcDbLinetypeTableRecord
  2
ByBlock
 70
     0
  3

 72
    65
 73
     0
 40
0.0
  0
LTYPE
  5
15
330
5
100
AcDbSymbolTableRecord
100
AcDbLinetypeTableRecord
  2
ByLayer
 70
     0
  3

 72
    65
 73
     0
 40
0.0
  0
LTYPE
  5
16
330
5
100
AcDbSymbolTableRecord
100
AcDbLinetypeTableRecord
  2
Continuous
 70
     0
  3
Solid line
 72
    65
 73
     0
 40
0.0
  0
LTYPE
  5
6E
330
5
100
AcDbSymbolTableRecord
100
AcDbLinetypeTableRecord
  2
HIDDEN
 70
     0
  3
Hidden __ __ __ __ __ __ __ __ __ __ __ __ __ __
 72
    65
 73
     2
 40
1.905
 49
1.27
 74
     0
 49
-0.635
 74
     0
  0
LTYPE
  5
6F
330
5
100
AcDbSymbolTableRecord
100
AcDbLinetypeTableRecord
  2
PHANTOM
 70
     0
  3
Phantom ______  __  __  ______  __  __  ______
 72
    65
 73
     6
 40
12.7
 49
6.35
 74
     0
 49
-1.27
 74
     0
 49
1.27
 74
     0
 49
-1.27
 74
     0
 49
1.27
 74
     0
 49
-1.27
 74
     0
  0
LTYPE
  5
70
330
5
100
AcDbSymbolTableRecord
100
AcDbLinetypeTableRecord
  2
CENTER
 70
     0
  3
Center ____ _ ____ _ ____ _ ____ _ ____ _ ____
 72
    65
 73
     4
 40
10.16
 49
6.35
 74
     0
 49
-1.27
 74
     0
 49
1.27
 74
     0
 49
-1.27
 74
     0
  0
LTYPE
  5
71
330
5
100
AcDbSymbolTableRecord
100
AcDbLinetypeTableRecord
  2
CENTERX2
 70
     0
  3
Center (2x) ________  __  ________  __  _____
 72
    65
 73
     4
 40
20.32
 49
12.7
 74
     0
 49
-2.54
 74
     0
 49
2.54
 74
     0
 49
-2.54
 74
     0
  0
LTYPE
  5
72
330
5
100
AcDbSymbolTableRecord
100
AcDbLinetypeTableRecord
  2
DOT2
 70
     0
  3
Dot (.5x) ........................................
 72
    65
 73
     2
 40
0.635
 49
0.0
 74
     0
 49
-0.635
 74
     0
  0
ENDTAB
  0
TABLE
  2
LAYER
  5
2
330
0
100
AcDbSymbolTable
 70
    17
  0
LAYER
  5
10
330
2
100
AcDbSymbolTableRecord
100
AcDbLayerTableRecord
  2
0
 70
     0
 62
     7
  6
Continuous
370
    -3
390
F
  0
LAYER
  5
73
330
2
100
AcDbSymbolTableRecord
100
AcDbLayerTableRecord
  2
FORMAT
 70
     0
 62
     7
  6
Continuous
370
    -3
390
F
  0
LAYER
  5
74
330
2
100
AcDbSymbolTableRecord
100
AcDbLayerTableRecord
  2
YARDIMCI_GEOMETRI
 70
     0
 62
    -6
  6
Continuous
290
     0
370
    -3
390
F
  0
LAYER
  5
75
330
2
100
AcDbSymbolTableRecord
100
AcDbLayerTableRecord
  2
SAYFA_CERCEVESI
 70
     0
 62
     7
  6
Continuous
370
    25
390
F
  0
LAYER
  5
76
330
2
100
AcDbSymbolTableRecord
100
AcDbLayerTableRecord
  2
ANTET
 70
     0
 62
     7
  6
Continuous
370
    -3
390
F
  0
LAYER
  5
77
330
2
100
AcDbSymbolTableRecord
100
AcDbLayerTableRecord
  2
OLCU
 70
     0
 62
   150
  6
Continuous
370
    -3
390
F
  0
LAYER
  5
78
330
2
100
AcDbSymbolTableRecord
100
AcDbLayerTableRecord
  2
METIN
 70
     0
 62
    96
  6
Continuous
370
    -3
390
F
  0
LAYER
  5
79
330
2
100
AcDbSymbolTableRecord
100
AcDbLayerTableRecord
  2
BALON
 70
     0
 62
     5
  6
Continuous
370
    -3
390
F
  0
LAYER
  5
7A
330
2
100
AcDbSymbolTableRecord
100
AcDbLayerTableRecord
  2
VURGU
 70
     0
 62
     7
  6
Continuous
370
    -3
390
F
  0
LAYER
  5
7B
330
2
100
AcDbSymbolTableRecord
100
AcDbLayerTableRecord
  2
SILIK
 70
     0
 62
     7
  6
Continuous
370
    -3
390
F
  0
LAYER
  5
7C
330
2
100
AcDbSymbolTableRecord
100
AcDbLayerTableRecord
  2
MODEL
 70
     0
 62
     7
  6
Continuous
370
    -3
390
F
  0
LAYER
  5
7D
330
2
100
AcDbSymbolTableRecord
100
AcDbLayerTableRecord
  2
DETAYLANDıRMA
 70
     0
 62
   190
  6
Continuous
370
    -3
390
F
  0
LAYER
  5
7E
330
2
100
AcDbSymbolTableRecord
100
AcDbLayerTableRecord
  2
TOLERANS
 70
     0
 62
   230
  6
Continuous
370
    -3
390
F
  0
LAYER
  5
7F
330
2
100
AcDbSymbolTableRecord
100
AcDbLayerTableRecord
  2
MERKEZ_CIZGILERI
 70
     0
 62
    30
  6
Continuous
370
    -3
390
F
  0
LAYER
  5
80
330
2
100
AcDbSymbolTableRecord
100
AcDbLayerTableRecord
  2
KESIT-DETAY_CIZGILERI
 70
     0
 62
     7
  6
Continuous
370
    -3
390
F
  0
LAYER
  5
81
330
2
100
AcDbSymbolTableRecord
100
AcDbLayerTableRecord
  2
\U+041E\U+0421\U+0415\U+0412\U+042B\U+0415
 70
     0
 62
     7
  6
Continuous
370
    -3
390
F
  0
LAYER
  5
82
330
2
100
AcDbSymbolTableRecord
100
AcDbLayerTableRecord
  2
\U+0412\U+041E\U+0414\U+042F\U+041D\U+042B\U+0415_\U+0417\U+041D\U+0410\U+041A\U+0418
 70
     0
 62
    11
  6
Continuous
370
    -3
390
F
  0
ENDTAB
  0
TABLE
  2
STYLE
  5
3
330
0
100
AcDbSymbolTable
 70
     1
  0
STYLE
  5
11
330
3
100
AcDbSymbolTableRecord
100
AcDbTextStyleTableRecord
  2
Standard
 70
     0
 40
0.0
 41
1.0
 50
0.0
 71
     0
 42
3.5
  3
txt
  4

  0
ENDTAB
  0
TABLE
  2
VIEW
  5
6
330
0
100
AcDbSymbolTable
 70
     0
  0
ENDTAB
  0
TABLE
  2
UCS
  5
7
330
0
100
AcDbSymbolTable
 70
     0
  0
ENDTAB
  0
TABLE
  2
APPID
  5
9
330
0
100
AcDbSymbolTable
 70
     1
  0
APPID
  5
12
330
9
100
AcDbSymbolTableRecord
100
AcDbRegAppTableRecord
  2
ACAD
 70
     0
  0
ENDTAB
  0
TABLE
  2
DIMSTYLE
  5
A
330
0
100
AcDbSymbolTable
 70
     1
100
AcDbDimStyleTable
  0
DIMSTYLE
105
27
330
A
100
AcDbSymbolTableRecord
100
AcDbDimStyleTableRecord
  2
ISO-25
 70
     0
 41
2.5
 42
0.625
 43
3.75
 44
1.25
 73
     0
 74
     0
 77
     1
 78
     8
140
2.5
141
2.5
143
0.0393700787
147
0.625
171
     3
172
     1
178
     0
271
     2
272
     2
274
     3
278
    44
283
     0
284
     8
340
11
  0
ENDTAB
  0
TABLE
  2
BLOCK_RECORD
  5
1
330
0
100
AcDbSymbolTable
 70
     2
  0
BLOCK_RECORD
  5
1F
330
1
100
AcDbSymbolTableRecord
100
AcDbBlockTableRecord
  2
*Model_Space
340
22
  0
BLOCK_RECORD
  5
1B
330
1
100
AcDbSymbolTableRecord
100
AcDbBlockTableRecord
  2
*Paper_Space
340
1E
  0
BLOCK_RECORD
  5
23
330
1
100
AcDbSymbolTableRecord
100
AcDbBlockTableRecord
  2
*Paper_Space0
340
26
  0
BLOCK_RECORD
  5
85
330
1
100
AcDbSymbolTableRecord
100
AcDbBlockTableRecord
  2
SW_CENTERMARKSYMBOL_0
340
0
102
{BLKREFS
331
90
102
}
  0
ENDTAB
  0
ENDSEC
  0
SECTION
  2
BLOCKS
  0
BLOCK
  5
20
330
1F
100
AcDbEntity
  8
0
100
AcDbBlockBegin
  2
*Model_Space
 70
     0
 10
0.0
 20
0.0
 30
0.0
  3
*Model_Space
  1

  0
ENDBLK
  5
21
330
1F
100
AcDbEntity
  8
0
100
AcDbBlockEnd
  0
BLOCK
  5
1C
330
1B
100
AcDbEntity
 67
     1
  8
0
100
AcDbBlockBegin
  2
*Paper_Space
 70
     0
 10
0.0
 20
0.0
 30
0.0
  3
*Paper_Space
  1

  0
ENDBLK
  5
1D
330
1B
100
AcDbEntity
 67
     1
  8
0
100
AcDbBlockEnd
  0
BLOCK
  5
24
330
23
100
AcDbEntity
  8
0
100
AcDbBlockBegin
  2
*Paper_Space0
 70
     0
 10
0.0
 20
0.0
 30
0.0
  3
*Paper_Space0
  1

  0
ENDBLK
  5
25
330
23
100
AcDbEntity
  8
0
100
AcDbBlockEnd
  0
BLOCK
  5
86
330
85
100
AcDbEntity
  8
0
100
AcDbBlockBegin
  2
SW_CENTERMARKSYMBOL_0
 70
     0
 10
0.0
 20
0.0
 30
0.0
  3
SW_CENTERMARKSYMBOL_0
  1

  0
LINE
  5
88
330
85
100
AcDbEntity
  8
FORMAT
 62
     0
100
AcDbLine
 10
0.0
 20
0.0
 30
0.0
 11
0.0
 21
2.5
 31
0.0
  0
LINE
  5
89
330
85
100
AcDbEntity
  8
FORMAT
 62
     0
100
AcDbLine
 10
0.0
 20
0.0
 30
0.0
 11
-2.5
 21
0.0
 31
0.0
  0
LINE
  5
8A
330
85
100
AcDbEntity
  8
FORMAT
 62
     0
100
AcDbLine
 10
0.0
 20
0.0
 30
0.0
 11
0.0
 21
-2.5
 31
0.0
  0
LINE
  5
8B
330
85
100
AcDbEntity
  8
FORMAT
 62
     0
100
AcDbLine
 10
0.0
 20
0.0
 30
0.0
 11
2.5
 21
0.0
 31
0.0
  0
LINE
  5
8C
330
85
100
AcDbEntity
  8
FORMAT
 62
     0
100
AcDbLine
 10
0.0
 20
5.0
 30
0.0
 11
0.0
 21
82.5
 31
0.0
  0
LINE
  5
8D
330
85
100
AcDbEntity
  8
FORMAT
 62
     0
100
AcDbLine
 10
-5.0
 20
0.0
 30
0.0
 11
-82.5
 21
0.0
 31
0.0
  0
LINE
  5
8E
330
85
100
AcDbEntity
  8
FORMAT
 62
     0
100
AcDbLine
 10
0.0
 20
-5.0
 30
0.0
 11
0.0
 21
-82.5
 31
0.0
  0
LINE
  5
8F
330
85
100
AcDbEntity
  8
FORMAT
 62
     0
100
AcDbLine
 10
5.0
 20
0.0
 30
0.0
 11
82.5
 21
0.0
 31
0.0
  0
ENDBLK
  5
87
330
85
100
AcDbEntity
  8
0
100
AcDbBlockEnd
  0
ENDSEC
  0
SECTION
  2
ENTITIES
  0
CIRCLE
  5
83
330
1F
100
AcDbEntity
  8
0
  6
Continuous
 62
     7
370
    25
100
AcDbCircle
 10
127.8025537254
 20
106.0321058177
 30
0.0
 40
65.4
  0
CIRCLE
  5
84
330
1F
100
AcDbEntity
  8
0
  6
Continuous
 62
     7
370
    25
100
AcDbCircle
 10
127.8025537254
 20
106.0321058177
 30
0.0
 40
80.00000000000001
  0
INSERT
  5
90
330
1F
100
AcDbEntity
  8
FORMAT
100
AcDbBlockReference
  2
SW_CENTERMARKSYMBOL_0
 10
127.8025537254
 20
106.0321058177
 30
0.0
  0
ARC
  5
91
330
1F
100
AcDbEntity
  8
0
  6
Continuous
 62
     7
370
    25
100
AcDbCircle
 10
125.3371148405
 20
496.8984061924
 30
0.0
 40
240.0000000000001
100
AcDbArc
 50
270.5885905305
 51
290.0967237504
  0
ARC
  5
92
330
1F
100
AcDbEntity
  8
0
  6
Continuous
 62
     7
370
    25
100
AcDbCircle
 10
130.2679926103
 20
496.8984061924
 30
0.0
 40
240.0000000000001
100
AcDbArc
 50
249.9032762496
 51
269.4114094695
  0
LINE
  5
93
330
1F
100
AcDbEntity
  8
0
  6
Continuous
 62
     7
370
    25
100
AcDbLine
 10
47.8025537254
 20
384.956990957
 30
0.0
 11
47.8025537254
 21
271.5110698367
 31
0.0
  0
LINE
  5
94
330
1F
100
AcDbEntity
  8
0
  6
Continuous
 62
     7
370
    25
100
AcDbLine
 10
207.8025537254
 20
271.5110698367
 30
0.0
 11
207.8025537254
 21
384.956990957
 31
0.0
  0
LINE
  5
95
330
1F
100
AcDbEntity
  8
0
  6
Continuous
 62
     7
370
    25
100
AcDbLine
 10
127.8025537254
 20
271.5110698367
 30
0.0
 11
207.8025537254
 21
271.5110698367
 31
0.0
  0
LINE
  5
96
330
1F
100
AcDbEntity
  8
0
  6
Continuous
 62
     7
370
    25
100
AcDbLine
 10
47.8025537254
 20
271.5110698367
 30
0.0
 11
127.8025537254
 21
271.5110698367
 31
0.0
  0
LINE
  5
97
330
1F
100
AcDbEntity
  8
0
  6
Continuous
 62
     7
370
    25
100
AcDbLine
 10
127.8025537254
 20
384.956990957
 30
0.0
 11
207.8025537254
 21
384.956990957
 31
0.0
  0
LINE
  5
98
330
1F
100
AcDbEntity
  8
0
  6
Continuous
 62
     7
370
    25
100
AcDbLine
 10
47.8025537254
 20
384.956990957
 30
0.0
 11
127.8025537254
 21
384.956990957
 31
0.0
  0
LINE
  5
99
330
1F
100
AcDbEntity
  8
0
  6
Continuous
 62
     7
370
    25
100
AcDbLine
 10
207.8025537254
 20
-175.3672384753
 30
0.0
 11
207.8025537254
 21
-61.921317355
 31
0.0
  0
LINE
  5
9A
330
1F
100
AcDbEntity
  8
0
  6
Continuous
 62
     7
370
    25
100
AcDbLine
 10
47.8025537254
 20
-61.921317355
 30
0.0
 11
47.8025537254
 21
-175.3672384753
 31
0.0
  0
ARC
  5
9B
330
1F
100
AcDbEntity
  8
0
  6
Continuous
 62
     7
370
    25
100
AcDbCircle
 10
130.2679926103
 20
-287.3086537107
 30
0.0
 40
240.0
100
AcDbArc
 50
90.5885905305
 51
110.0967237504
  0
ARC
  5
9C
330
1F
100
AcDbEntity
  8
0
  6
Continuous
 62
     7
370
    25
100
AcDbCircle
 10
125.3371148405
 20
-287.3086537107
 30
0.0
 40
240.0
100
AcDbArc
 50
69.9032762496
 51
89.4114094695
  0
LINE
  5
9D
330
1F
100
AcDbEntity
  8
0
  6
Continuous
 62
     7
370
    25
100
AcDbLine
 10
207.8025537254
 20
-175.3672384753
 30
0.0
 11
47.8025537254
 21
-175.3672384753
 31
0.0
  0
LINE
  5
9E
330
1F
100
AcDbEntity
  8
0
  6
Continuous
 62
     7
370
    25
100
AcDbLine
 10
207.8025537254
 20
-61.921317355
 30
0.0
 11
47.8025537254
 21
-61.921317355
 31
0.0
  0
ARC
  5
9F
330
1F
100
AcDbEntity
  8
0
  6
Continuous
 62
     7
370
    25
100
AcDbCircle
 10
515.5614612898
 20
108.4975447026
 30
0.0
 40
240.0
100
AcDbArc
 50
180.5885905305
 51
200.0967237504
  0
ARC
  5
A0
330
1F
100
AcDbEntity
  8
0
  6
Continuous
 62
     7
370
    25
100
AcDbCircle
 10
515.5614612898
 20
103.5666669327
 30
0.0
 40
240.0
100
AcDbArc
 50
159.9032762496
 51
179.4114094695
  0
LINE
  5
A1
330
1F
100
AcDbEntity
  8
0
  6
Continuous
 62
     7
370
    25
100
AcDbLine
 10
403.6200460544
 20
186.0321058177
 30
0.0
 11
290.1741249341
 21
186.0321058177
 31
0.0
  0
LINE
  5
A2
330
1F
100
AcDbEntity
  8
0
  6
Continuous
 62
     7
370
    25
100
AcDbLine
 10
290.1741249341
 20
26.0321058177
 30
0.0
 11
403.6200460544
 21
26.0321058177
 31
0.0
  0
LINE
  5
A3
330
1F
100
AcDbEntity
  8
0
  6
Continuous
 62
     7
370
    25
100
AcDbLine
 10
290.1741249341
 20
186.0321058177
 30
0.0
 11
290.1741249341
 21
26.0321058177
 31
0.0
  0
LINE
  5
A4
330
1F
100
AcDbEntity
  8
0
  6
Continuous
 62
     7
370
    25
100
AcDbLine
 10
403.6200460544
 20
186.0321058177
 30
0.0
 11
403.6200460544
 21
26.0321058177
 31
0.0
  0
ARC
  5
A5
330
1F
100
AcDbEntity
  8
0
  6
Continuous
 62
     7
370
    25
100
AcDbCircle
 10
-278.1504416719
 20
103.5666669327
 30
0.0
 40
240.0
100
AcDbArc
 50
0.5885905305
 51
20.0967237504
  0
ARC
  5
A6
330
1F
100
AcDbEntity
  8
0
  6
Continuous
 62
     7
370
    25
100
AcDbCircle
 10
-278.1504416719
 20
108.4975447026
 30
0.0
 40
240.0
100
AcDbArc
 50
339.9032762496
 51
359.4114094695
  0
LINE
  5
A7
330
1F
100
AcDbEntity
  8
0
  6
Continuous
 62
     7
370
    25
100
AcDbLine
 10
-166.2090264365
 20
26.0321058177
 30
0.0
 11
-52.7631053162
 21
26.0321058177
 31
0.0
  0
LINE
  5
A8
330
1F
100
AcDbEntity
  8
0
  6
Continuous
 62
     7
370
    25
100
AcDbLine
 10
-52.7631053162
 20
186.0321058177
 30
0.0
 11
-166.2090264365
 21
186.0321058177
 31
0.0
  0
LINE
  5
A9
330
1F
100
AcDbEntity
  8
0
  6
Continuous
 62
     7
370
    25
100
AcDbLine
 10
-52.7631053162
 20
26.0321058177
 30
0.0
 11
-52.7631053162
 21
186.0321058177
 31
0.0
  0
LINE
  5
AA
330
1F
100
AcDbEntity
  8
0
  6
Continuous
 62
     7
370
    25
100
AcDbLine
 10
-166.2090264365
 20
26.0321058177
 30
0.0
 11
-166.2090264365
 21
186.0321058177
 31
0.0
  0
LINE
  5
AB
330
1F
100
AcDbEntity
  8
0
  6
Continuous
 62
     7
370
    25
100
AcDbLine
 10
278.1117588783
 20
-167.9050980691
 30
0.0
 11
358.3301390004
 21
-214.214183197
 31
0.0
  0
LINE
  5
AC
330
1F
100
AcDbEntity
  8
0
  6
Continuous
 62
     7
370
    25
100
AcDbLine
 10
438.3236376113
 20
-75.6463652161
 30
0.0
 11
358.1052574892
 21
-29.3372800882
 31
0.0
  0
LWPOLYLINE
  5
AD
330
1F
100
AcDbEntity
  8
0
  6
Continuous
 62
     7
370
    25
100
AcDbPolyline
 90
      134
 70
   128
 43
0.0
 10
318.1085081837
 20
-163.9444540295
 10
320.7799250341
 20
-162.3293970344
 10
323.4453809089
 20
-160.5721821161
 10
326.0989281337
 20
-158.676730308
 10
328.7346456073
 20
-156.6472711043
 10
331.3466520132
 20
-154.4883330221
 10
333.9291189437
 20
-152.2047334965
 10
336.4762839055
 20
-149.8015681308
 10
338.9824631774
 20
-147.2841993268
 10
341.4420644935
 20
-144.6582443186
 10
343.8495995216
 20
-141.9295626386
 10
346.1996961095
 20
-139.1042430426
 10
348.4871102728
 20
-136.1885899235
 10
350.7067378962
 20
-133.1891092433
 10
352.8536261224
 20
-130.1124940164
 10
354.9229844044
 20
-126.9656093744
 10
356.9101951946
 20
-123.7554772474
 10
358.8108242488
 20
-120.4892606954
 10
360.6206305203
 20
-117.1742479247
 10
362.3355756236
 20
-113.817836025
 10
363.9518328457
 20
-110.4275144638
 10
365.4657956846
 20
-107.0108483741
 10
366.8740858974
 20
-103.5754616739
 10
368.1735610379
 20
-100.1290200544
 10
369.3613214688
 20
-96.6792138744
 10
370.4347168323
 20
-93.2337410004
 10
371.3913519636
 20
-89.8002896296
 10
372.2290922355
 20
-86.3865211348
 10
372.9460683221
 20
-83.0000529681
 10
373.5406803693
 20
-79.6484416643
 10
374.011601565
 20
-76.3391659788
 10
374.3577811001
 20
-73.0796101996
 10
374.5784465125
 20
-69.8770476702
 10
374.6731054115
 20
-66.7386245599
 10
374.641546576
 20
-63.6713439179
 10
374.4838404262
 20
-60.6820500466
 10
374.200338866
 20
-57.7774132295
 10
373.7916744985
 20
-54.9639148473
 10
373.2587592135
 20
-52.2478329148
 10
372.6027821534
 20
-49.635228073
 10
371.8252070596
 20
-47.1319300648
 10
370.9277690062
 20
-44.7435247269
 10
369.9124705283
 20
-42.4753415256
 10
368.7815771539
 20
-40.3324416645
 10
367.5376123484
 20
-38.3196067911
 10
366.1833518835
 20
-36.4413283271
 10
364.7218176439
 20
-34.7017974462
 10
363.1562708841
 20
-33.1048957219
 10
361.490204951
 20
-31.6541864665
 10
359.7273374892
 20
-30.3529067796
 10
357.8716021452
 20
-29.2039603249
 10
355.9271397904
 20
-28.2099108513
 10
353.8982892805
 20
-27.3729764718
 10
351.7895777744
 20
-26.6950247143
 10
349.6057106319
 20
-26.1775683543
 10
347.3515609147
 20
-25.8217620393
 10
345.0321585121
 20
-25.6283997122
 10
342.6526789179
 20
-25.59791284
 10
340.2184316814
 20
-25.7303694509
 10
337.7348485601
 20
-26.0254739824
 10
335.2074713991
 20
-26.4825679408
 10
332.641939765
 20
-27.1006313708
 10
330.0439783623
 20
-27.8782851313
 10
327.4193842585
 20
-28.8137939725
 10
324.7740139494
 20
-29.9050704085
 10
322.1137702905
 20
-31.1496793748
 10
319.4445893258
 20
-32.5448436622
 10
316.7724270416
 20
-34.0874501136
 10
314.1032460769
 20
-35.7740565707
 10
311.4430024181
 20
-37.6008995552
 10
308.797632109
 20
-39.5639026659
 10
306.1730380052
 20
-41.6586856753
 10
303.5750766024
 20
-43.8805743035
 10
301.0095449684
 20
-46.224610648
 10
298.4821678074
 20
-48.6855642473
 10
295.9985846861
 20
-51.2579437516
 10
293.5643374496
 20
-53.9360091763
 10
291.1848578554
 20
-56.7137847103
 10
288.8654554528
 20
-59.5850720502
 10
286.6113057355
 20
-62.5434642312
 10
284.4274385931
 20
-65.5823599235
 10
282.3187270869
 20
-68.6949781626
 10
280.289876577
 20
-71.8743734802
 10
278.3454142222
 20
-75.1134514019
 10
276.4896788783
 20
-78.4049842784
 10
274.7268114165
 20
-81.7416274129
 10
273.0607454833
 20
-85.1159354497
 10
271.4951987235
 20
-88.5203789882
 10
270.033664484
 20
-91.9473613837
 10
268.6794040191
 20
-95.3892356984
 10
267.4354392135
 20
-98.8383217648
 10
266.3045458391
 20
-102.2869233234
 10
265.2892473613
 20
-105.7273451954
 10
264.3918093078
 20
-109.1519104545
 10
263.614234214
 20
-112.5529775564
 10
262.958257154
 20
-115.9229573906
 10
262.425341869
 20
-119.2543302143
 10
262.0166775014
 20
-122.5396624321
 10
261.7331759413
 20
-125.7716231832
 10
261.5754697914
 20
-128.9430006993
 10
261.543910956
 20
-132.0467183972
 10
261.6385698549
 20
-135.0758506691
 10
261.8592352674
 20
-138.0236383363
 10
262.2054148024
 20
-140.883503732
 10
262.6763359982
 20
-143.6490653782
 10
263.2709480453
 20
-146.3141522254
 10
263.9879241319
 20
-148.8728174228
 10
264.8256644039
 20
-151.3193515878
 10
265.7822995351
 20
-153.6482955461
 10
266.8556948986
 20
-155.854452513
 10
268.0434553296
 20
-157.9328996896
 10
269.34293047
 20
-159.8789992477
 10
270.7512206828
 20
-161.688408678
 10
272.2651835218
 20
-163.3570904808
 10
273.8814407439
 20
-164.8813211742
 10
275.5963858472
 20
-166.2576996038
 10
277.4061921187
 20
-167.4831545309
 10
279.3068211728
 20
-168.5549514865
 10
281.294031963
 20
-169.4706988725
 10
283.363390245
 20
-170.2283532984
 10
285.5102784712
 20
-170.8262241408
 10
287.7299060946
 20
-171.2629773162
 10
290.017320258
 20
-171.5376382575
 10
292.3674168459
 20
-171.6495940886
 10
294.7749518739
 20
-171.5985949924
 10
297.23455319
 20
-171.3847547678
 10
299.7407324619
 20
-171.0085505759
 10
302.2878974237
 20
-170.4708218754
 10
304.8703643543
 20
-169.7727685492
 10
307.4823707602
 20
-168.9159482274
 10
310.1180882337
 20
-167.9022728111
 10
312.7716354586
 20
-166.7340042064
 10
315.4370913334
 20
-165.4137492776
 10
318.1085081837
 20
-163.9444540295
  0
LWPOLYLINE
  5
AE
330
1F
100
AcDbEntity
  8
0
  6
Continuous
 62
     7
370
    25
100
AcDbPolyline
 90
       51
 70
   128
 43
0.0
 10
398.3268883059
 20
-210.2535391574
 10
400.9983051562
 20
-208.6384821624
 10
403.663761031
 20
-206.881267244
 10
406.3173082559
 20
-204.9858154359
 10
408.9530257294
 20
-202.9563562322
 10
411.5650321353
 20
-200.79741815
 10
414.1474990659
 20
-198.5138186244
 10
416.6946640277
 20
-196.1106532587
 10
419.2008432996
 20
-193.5932844547
 10
421.6604446157
 20
-190.9673294465
 10
424.0679796437
 20
-188.2386477665
 10
426.4180762316
 20
-185.4133281706
 10
428.705490395
 20
-182.4976750514
 10
430.9251180184
 20
-179.4981943712
 10
433.0720062446
 20
-176.4215791443
 10
435.1413645266
 20
-173.2746945023
 10
437.1285753168
 20
-170.0645623753
 10
439.0292043709
 20
-166.7983458233
 10
440.8390106424
 20
-163.4833330526
 10
442.5539557457
 20
-160.1269211529
 10
444.1702129678
 20
-156.7365995917
 10
445.6841758068
 20
-153.319933502
 10
447.0924660196
 20
-149.8845468019
 10
448.39194116
 20
-146.4381051823
 10
449.579701591
 20
-142.9882990023
 10
450.6530969545
 20
-139.5428261283
 10
451.6097320857
 20
-136.1093747576
 10
452.4474723577
 20
-132.6956062627
 10
453.1644484443
 20
-129.309138096
 10
453.7590604914
 20
-125.9575267922
 10
454.2299816872
 20
-122.6482511067
 10
454.5761612222
 20
-119.3886953275
 10
454.7968266347
 20
-116.1861327981
 10
454.8914855337
 20
-113.0477096878
 10
454.8599266982
 20
-109.9804290458
 10
454.7022205483
 20
-106.9911351745
 10
454.4187189882
 20
-104.0864983575
 10
454.0100546206
 20
-101.2729999752
 10
453.4771393356
 20
-98.5569180427
 10
452.8211622756
 20
-95.9443132009
 10
452.0435871818
 20
-93.4410151927
 10
451.1461491284
 20
-91.0526098548
 10
450.1308506505
 20
-88.7844266535
 10
448.9999572761
 20
-86.6415267924
 10
447.7559924705
 20
-84.6286919191
 10
446.4017320056
 20
-82.750413455
 10
444.9401977661
 20
-81.0108825741
 10
443.3746510063
 20
-79.4139808499
 10
441.7085850732
 20
-77.9632715945
 10
439.9457176113
 20
-76.6619919075
 10
438.3236376113
 20
-75.6463652161
  0
LWPOLYLINE
  5
AF
330
1F
100
AcDbEntity
  8
0
  6
Continuous
 62
     7
370
    25
100
AcDbPolyline
 90
       18
 70
   128
 43
0.0
 10
358.3301390004
 20
-214.214183197
 10
359.525201295
 20
-214.8640366145
 10
361.5124120852
 20
-215.7797840004
 10
363.5817703672
 20
-216.5374384263
 10
365.7286585934
 20
-217.1353092688
 10
367.9482862168
 20
-217.5720624442
 10
370.2357003801
 20
-217.8467233854
 10
372.585796968
 20
-217.9586792166
 10
374.9933319961
 20
-217.9076801203
 10
377.4529333122
 20
-217.6938398957
 10
379.9591125841
 20
-217.3176357038
 10
382.5062775459
 20
-216.7799070033
 10
385.0887444764
 20
-216.0818536772
 10
387.7007508823
 20
-215.2250333553
 10
390.3364683559
 20
-214.211357939
 10
392.9900155808
 20
-213.0430893344
 10
395.6554714555
 20
-211.7228344055
 10
398.3268883059
 20
-210.2535391574
  0
LWPOLYLINE
  5
B0
330
1F
100
AcDbEntity
  8
0
  6
Continuous
 62
     7
370
    25
100
AcDbPolyline
 90
      121
 70
   128
 43
0.0
 10
318.1085081837
 20
-152.022958176
 10
320.5287731489
 20
-150.552583683
 10
322.942404336
 20
-148.9398688471
 10
325.3427861498
 20
-147.1892340076
 10
327.7233393105
 20
-145.3054775328
 10
330.0775388875
 20
-143.2937626684
 10
332.3989321832
 20
-141.159603385
 10
334.6811564201
 20
-138.9088492647
 10
336.9179561801
 20
-136.5476694682
 10
339.1032005505
 20
-134.0825358252
 10
341.2308999285
 20
-131.5202050957
 10
343.295222438
 20
-128.86770045
 10
345.2905099144
 20
-126.1322922191
 10
347.2112934134
 20
-123.3214779667
 10
349.0523082011
 20
-120.4429619394
 10
350.8085081837
 20
-117.5046339495
 10
352.4750797393
 20
-114.5145477498
 10
354.0474549111
 20
-111.4808989587
 10
355.521323928
 20
-108.4120025967
 10
356.8926470175
 20
-105.3162702954
 10
358.1576654782
 20
-102.2021872418
 10
359.3129119826
 20
-99.0782889212
 10
360.3552200803
 20
-95.9531377217
 10
361.2817328772
 20
-92.8352994655
 10
362.0899108662
 20
-89.7333199305
 10
362.7775388875
 20
-86.6557014271
 10
363.3427322005
 20
-83.6108794937
 10
363.7839416497
 20
-80.6071997755
 10
364.0999579107
 20
-77.6528951498
 10
364.2899148048
 20
-74.7560631603
 10
364.3532916733
 20
-71.924643822
 10
364.2899148048
 20
-69.1663978587
 10
364.0999579107
 20
-66.4888854307
 10
363.7839416497
 20
-63.8994454136
 10
363.3427322005
 20
-61.4051752823
 10
362.7775388875
 20
-59.012911658
 10
362.0899108662
 20
-56.729211569
 10
361.2817328772
 20
-54.5603344785
 10
360.3552200803
 20
-52.5122251278
 10
359.3129119826
 20
-50.5904972422
 10
358.1576654782
 20
-48.8004181445
 10
356.8926470175
 20
-47.1468943168
 10
355.521323928
 20
-45.6344579532
 10
354.0474549111
 20
-44.2672545365
 10
352.4750797393
 20
-43.0490314763
 10
350.8085081837
 20
-41.9831278374
 10
349.0523082011
 20
-41.0724651874
 10
347.2112934134
 20
-40.3195395894
 10
345.2905099144
 20
-39.7264147602
 10
343.295222438
 20
-39.2947164137
 10
341.2308999285
 20
-39.025627805
 10
339.1032005505
 20
-38.9198864874
 10
336.9179561801
 20
-38.9777822903
 10
334.6811564201
 20
-39.1991565255
 10
332.3989321832
 20
-39.5834024215
 10
330.0775388875
 20
-40.1294667872
 10
327.7233393105
 20
-40.8358528979
 10
325.3427861498
 20
-41.7006245984
 10
322.942404336
 20
-42.7214116097
 10
320.5287731489
 20
-43.8954160255
 10
318.1085081837
 20
-45.2194199813
 10
315.6882432185
 20
-46.6897944743
 10
313.2746120314
 20
-48.3025093102
 10
310.8742302176
 20
-50.0531441497
 10
308.4936770569
 20
-51.9369006244
 10
306.13947748
 20
-53.9486154889
 10
303.8180841842
 20
-56.0827747723
 10
301.5358599474
 20
-58.3335288926
 10
299.2990601874
 20
-60.6947086891
 10
297.1138158169
 20
-63.1598423321
 10
294.9861164389
 20
-65.7221730616
 10
292.9217939295
 20
-68.3746777073
 10
290.9265064531
 20
-71.1100859382
 10
289.005722954
 20
-73.9209001906
 10
287.1647081664
 20
-76.7994162179
 10
285.4085081837
 20
-79.7377442078
 10
283.7419366281
 20
-82.7278304075
 10
282.1695614563
 20
-85.7614791986
 10
280.6956924394
 20
-88.8303755606
 10
279.32436935
 20
-91.9261078619
 10
278.0593508892
 20
-95.0401909155
 10
276.9041043848
 20
-98.1640892361
 10
275.8617962871
 20
-101.2892404356
 10
274.9352834902
 20
-104.4070786918
 10
274.1271055013
 20
-107.5090582267
 10
273.43947748
 20
-110.5866767301
 10
272.8742841669
 20
-113.6314986636
 10
272.4330747177
 20
-116.6351783818
 10
272.1170584568
 20
-119.5894830075
 10
271.9271015627
 20
-122.486314997
 10
271.8637246941
 20
-125.3177343352
 10
271.9271015627
 20
-128.0759802986
 10
272.1170584568
 20
-130.7534927265
 10
272.4330747177
 20
-133.3429327437
 10
272.8742841669
 20
-135.837202875
 10
273.43947748
 20
-138.2294664992
 10
274.1271055013
 20
-140.5131665883
 10
274.9352834902
 20
-142.6820436788
 10
275.8617962871
 20
-144.7301530295
 10
276.9041043848
 20
-146.651880915
 10
278.0593508892
 20
-148.4419600128
 10
279.32436935
 20
-150.0954838404
 10
280.6956924394
 20
-151.6079202041
 10
282.1695614563
 20
-152.9751236207
 10
283.7419366281
 20
-154.1933466809
 10
285.4085081837
 20
-155.2592503199
 10
287.1647081664
 20
-156.1699129699
 10
289.005722954
 20
-156.9228385679
 10
290.9265064531
 20
-157.5159633971
 10
292.9217939295
 20
-157.9476617436
 10
294.9861164389
 20
-158.2167503523
 10
297.1138158169
 20
-158.3224916699
 10
299.2990601874
 20
-158.264595867
 10
301.5358599474
 20
-158.0432216318
 10
303.8180841842
 20
-157.6589757357
 10
306.13947748
 20
-157.1129113701
 10
308.4936770569
 20
-156.4065252594
 10
310.8742302176
 20
-155.5417535589
 10
313.2746120314
 20
-154.5209665476
 10
315.6882432185
 20
-153.3469621318
 10
318.1085081837
 20
-152.022958176
  0
ENDSEC
  0
SECTION
  2
OBJECTS
  0
DICTIONARY
  5
C
330
0
100
AcDbDictionary
281
     1
  3
ACAD_GROUP
350
D
  3
ACAD_LAYOUT
350
1A
  3
ACAD_MLINESTYLE
350
17
  3
ACAD_PLOTSETTINGS
350
19
  3
ACAD_PLOTSTYLENAME
350
E
  3
ACAD_SCALELIST
350
47
  3
DWGPROPS
350
B1
  0
DICTIONARY
  5
D
102
{ACAD_REACTORS
330
C
102
}
330
C
100
AcDbDictionary
281
     1
  0
DICTIONARY
  5
1A
102
{ACAD_REACTORS
330
C
102
}
330
C
100
AcDbDictionary
281
     1
  3
Layout1
350
1E
  3
Layout2
350
26
  3
Model
350
22
  0
DICTIONARY
  5
17
102
{ACAD_REACTORS
330
C
102
}
330
C
100
AcDbDictionary
281
     1
  3
Standard
350
18
  0
DICTIONARY
  5
19
102
{ACAD_REACTORS
330
C
102
}
330
C
100
AcDbDictionary
281
     1
  0
ACDBDICTIONARYWDFLT
  5
E
102
{ACAD_REACTORS
330
C
102
}
330
C
100
AcDbDictionary
281
     1
  3
Normal
350
F
100
AcDbDictionaryWithDefault
340
F
  0
DICTIONARY
  5
47
102
{ACAD_REACTORS
330
C
102
}
330
C
100
AcDbDictionary
281
     1
  3
A0
350
48
  3
A1
350
49
  3
A2
350
4A
  3
A3
350
4B
  3
A4
350
4C
  3
A5
350
4D
  3
A6
350
4E
  3
A7
350
4F
  3
A8
350
50
  3
A9
350
51
  3
B0
350
52
  3
B1
350
53
  3
B2
350
54
  3
B3
350
55
  3
B4
350
56
  3
B5
350
57
  3
B6
350
58
  3
B7
350
59
  3
B8
350
5A
  3
B9
350
5B
  3
C0
350
5C
  3
C1
350
5D
  3
C2
350
5E
  3
C3
350
5F
  3
C4
350
60
  3
C5
350
61
  3
C6
350
62
  3
C7
350
63
  3
C8
350
64
  3
C9
350
65
  3
D0
350
66
  3
D1
350
67
  3
D2
350
68
  0
XRECORD
  5
B1
102
{ACAD_REACTORS
330
C
102
}
330
C
100
AcDbXrecord
280
     1
  1
DWGPROPS COOKIE
  2

  3

  4

  6

  7

  8
b.kav
  9

300
=
301
=
302
=
303
=
304
=
305
=
306
=
307
=
308
=
309
=
 40
0.0
 41
2460697.415951887
 42
2460697.415951887
  1

 90
        0
  0
LAYOUT
  5
1E
102
{ACAD_REACTORS
330
1A
102
}
330
1A
100
AcDbPlotSettings
  1

  2
none_device
  4

  6

 40
0.0
 41
0.0
 42
0.0
 43
0.0
 44
0.0
 45
0.0
 46
0.0
 47
0.0
 48
0.0
 49
0.0
140
0.0
141
0.0
142
1.0
143
1.0
 70
   688
 72
     1
 73
     0
 74
     5
  7

 75
    16
147
1.0
148
0.0
149
0.0
100
AcDbLayout
  1
Layout1
 70
     1
 71
     1
 10
0.0
 20
0.0
 11
420.0
 21
297.0
 12
0.0
 22
0.0
 32
0.0
 14
1.0000000000E+20
 24
1.0000000000E+20
 34
1.0000000000E+20
 15
-1.0000000000E+20
 25
-1.0000000000E+20
 35
-1.0000000000E+20
146
0.0
 13
0.0
 23
0.0
 33
0.0
 16
1.0
 26
0.0
 36
0.0
 17
0.0
 27
1.0
 37
0.0
 76
     0
330
1B
  0
LAYOUT
  5
26
102
{ACAD_REACTORS
330
1A
102
}
330
1A
100
AcDbPlotSettings
  1

  2
none_device
  4

  6

 40
0.0
 41
0.0
 42
0.0
 43
0.0
 44
0.0
 45
0.0
 46
0.0
 47
0.0
 48
0.0
 49
0.0
140
0.0
141
0.0
142
1.0
143
1.0
 70
   688
 72
     1
 73
     0
 74
     5
  7

 75
    16
147
1.0
148
0.0
149
0.0
100
AcDbLayout
  1
Layout2
 70
     1
 71
     2
 10
0.0
 20
0.0
 11
0.0
 21
0.0
 12
0.0
 22
0.0
 32
0.0
 14
0.0
 24
0.0
 34
0.0
 15
0.0
 25
0.0
 35
0.0
146
0.0
 13
0.0
 23
0.0
 33
0.0
 16
1.0
 26
0.0
 36
0.0
 17
0.0
 27
1.0
 37
0.0
 76
     0
330
23
  0
LAYOUT
  5
22
102
{ACAD_REACTORS
330
1A
102
}
330
1A
100
AcDbPlotSettings
  1

  2
none_device
  4
Letter_(8.50_x_11.00_Inches)
  6

 40
6.35
 41
6.35
 42
6.35000508
 43
6.35000508
 44
215.9
 45
279.4
 46
0.0
 47
0.0
 48
0.0
 49
0.0
140
0.0
141
0.0
142
1.0
143
1.0
 70
  1712
 72
     1
 73
     0
 74
     0
  7

 75
     0
147
1.0
148
0.0
149
0.0
100
AcDbLayout
  1
Model
 70
     1
 71
     0
 10
0.0
 20
0.0
 11
279.4
 21
215.9
 12
0.0
 22
0.0
 32
0.0
 14
0.0
 24
0.0
 34
0.0
 15
279.4
 25
215.9
 35
0.0
146
0.0
 13
0.0
 23
0.0
 33
0.0
 16
1.0
 26
0.0
 36
0.0
 17
0.0
 27
1.0
 37
0.0
 76
     0
330
1F
331
29
  0
MLINESTYLE
  5
18
102
{ACAD_REACTORS
330
17
102
}
330
17
100
AcDbMlineStyle
  2
Standard
 70
     0
  3

 62
   256
 51
90.0
 52
90.0
 71
     2
 49
0.5
 62
   256
  6
BYLAYER
 49
-0.5
 62
   256
  6
BYLAYER
  0
ACDBPLACEHOLDER
  5
F
102
{ACAD_REACTORS
330
E
102
}
330
E
  0
SCALE
  5
48
102
{ACAD_REACTORS
330
47
102
}
330
47
100
AcDbScale
 70
     0
300
1:1
140
1.0
141
1.0
290
     1
  0
SCALE
  5
49
102
{ACAD_REACTORS
330
47
102
}
330
47
100
AcDbScale
 70
     0
300
1:2
140
1.0
141
2.0
290
     0
  0
SCALE
  5
4A
102
{ACAD_REACTORS
330
47
102
}
330
47
100
AcDbScale
 70
     0
300
1:4
140
1.0
141
4.0
290
     0
  0
SCALE
  5
4B
102
{ACAD_REACTORS
330
47
102
}
330
47
100
AcDbScale
 70
     0
300
1:5
140
1.0
141
5.0
290
     0
  0
SCALE
  5
4C
102
{ACAD_REACTORS
330
47
102
}
330
47
100
AcDbScale
 70
     0
300
1:8
140
1.0
141
8.0
290
     0
  0
SCALE
  5
4D
102
{ACAD_REACTORS
330
47
102
}
330
47
100
AcDbScale
 70
     0
300
1:10
140
1.0
141
10.0
290
     0
  0
SCALE
  5
4E
102
{ACAD_REACTORS
330
47
102
}
330
47
100
AcDbScale
 70
     0
300
1:16
140
1.0
141
16.0
290
     0
  0
SCALE
  5
4F
102
{ACAD_REACTORS
330
47
102
}
330
47
100
AcDbScale
 70
     0
300
1:20
140
1.0
141
20.0
290
     0
  0
SCALE
  5
50
102
{ACAD_REACTORS
330
47
102
}
330
47
100
AcDbScale
 70
     0
300
1:30
140
1.0
141
30.0
290
     0
  0
SCALE
  5
51
102
{ACAD_REACTORS
330
47
102
}
330
47
100
AcDbScale
 70
     0
300
1:40
140
1.0
141
40.0
290
     0
  0
SCALE
  5
52
102
{ACAD_REACTORS
330
47
102
}
330
47
100
AcDbScale
 70
     0
300
1:50
140
1.0
141
50.0
290
     0
  0
SCALE
  5
53
102
{ACAD_REACTORS
330
47
102
}
330
47
100
AcDbScale
 70
     0
300
1:100
140
1.0
141
100.0
290
     0
  0
SCALE
  5
54
102
{ACAD_REACTORS
330
47
102
}
330
47
100
AcDbScale
 70
     0
300
2:1
140
2.0
141
1.0
290
     0
  0
SCALE
  5
55
102
{ACAD_REACTORS
330
47
102
}
330
47
100
AcDbScale
 70
     0
300
4:1
140
4.0
141
1.0
290
     0
  0
SCALE
  5
56
102
{ACAD_REACTORS
330
47
102
}
330
47
100
AcDbScale
 70
     0
300
8:1
140
8.0
141
1.0
290
     0
  0
SCALE
  5
57
102
{ACAD_REACTORS
330
47
102
}
330
47
100
AcDbScale
 70
     0
300
10:1
140
10.0
141
1.0
290
     0
  0
SCALE
  5
58
102
{ACAD_REACTORS
330
47
102
}
330
47
100
AcDbScale
 70
     0
300
100:1
140
100.0
141
1.0
290
     0
  0
SCALE
  5
59
102
{ACAD_REACTORS
330
47
102
}
330
47
100
AcDbScale
 70
     0
300
1/128" = 1'-0"
140
0.0078125
141
12.0
290
     0
  0
SCALE
  5
5A
102
{ACAD_REACTORS
330
47
102
}
330
47
100
AcDbScale
 70
     0
300
1/64" = 1'-0"
140
0.015625
141
12.0
290
     0
  0
SCALE
  5
5B
102
{ACAD_REACTORS
330
47
102
}
330
47
100
AcDbScale
 70
     0
300
1/32" = 1'-0"
140
0.03125
141
12.0
290
     0
  0
SCALE
  5
5C
102
{ACAD_REACTORS
330
47
102
}
330
47
100
AcDbScale
 70
     0
300
1/16" = 1'-0"
140
0.0625
141
12.0
290
     0
  0
SCALE
  5
5D
102
{ACAD_REACTORS
330
47
102
}
330
47
100
AcDbScale
 70
     0
300
3/32" = 1'-0"
140
0.09375
141
12.0
290
     0
  0
SCALE
  5
5E
102
{ACAD_REACTORS
330
47
102
}
330
47
100
AcDbScale
 70
     0
300
1/8" = 1'-0"
140
0.125
141
12.0
290
     0
  0
SCALE
  5
5F
102
{ACAD_REACTORS
330
47
102
}
330
47
100
AcDbScale
 70
     0
300
3/16" = 1'-0"
140
0.1875
141
12.0
290
     0
  0
SCALE
  5
60
102
{ACAD_REACTORS
330
47
102
}
330
47
100
AcDbScale
 70
     0
300
1/4" = 1'-0"
140
0.25
141
12.0
290
     0
  0
SCALE
  5
61
102
{ACAD_REACTORS
330
47
102
}
330
47
100
AcDbScale
 70
     0
300
3/8" = 1'-0"
140
0.375
141
12.0
290
     0
  0
SCALE
  5
62
102
{ACAD_REACTORS
330
47
102
}
330
47
100
AcDbScale
 70
     0
300
1/2" = 1'-0"
140
0.5
141
12.0
290
     0
  0
SCALE
  5
63
102
{ACAD_REACTORS
330
47
102
}
330
47
100
AcDbScale
 70
     0
300
3/4" = 1'-0"
140
0.75
141
12.0
290
     0
  0
SCALE
  5
64
102
{ACAD_REACTORS
330
47
102
}
330
47
100
AcDbScale
 70
     0
300
1" = 1'-0"
140
1.0
141
12.0
290
     0
  0
SCALE
  5
65
102
{ACAD_REACTORS
330
47
102
}
330
47
100
AcDbScale
 70
     0
300
1-1/2" = 1'-0"
140
1.5
141
12.0
290
     0
  0
SCALE
  5
66
102
{ACAD_REACTORS
330
47
102
}
330
47
100
AcDbScale
 70
     0
300
3" = 1'-0"
140
3.0
141
12.0
290
     0
  0
SCALE
  5
67
102
{ACAD_REACTORS
330
47
102
}
330
47
100
AcDbScale
 70
     0
300
6" = 1'-0"
140
6.0
141
12.0
290
     0
  0
SCALE
  5
68
102
{ACAD_REACTORS
330
47
102
}
330
47
100
AcDbScale
 70
     0
300
1'-0" = 1'-0"
140
12.0
141
12.0
290
     0
  0
ENDSEC
  0
EOF
